ISO-10303-21;
HEADER;
FILE_DESCRIPTION (( 'STEP AP203' ),
    '1' );
FILE_NAME ('Q-OZHWP-R2-25.4-405-M.STEP',
    '2020-12-22T09:18:55',
    ( '' ),
    ( '' ),
    'SwSTEP 2.0',
    'SolidWorks 2020',
    '' );
FILE_SCHEMA (( 'CONFIG_CONTROL_DESIGN' ));
ENDSEC;

DATA;
#1 =( NAMED_UNIT ( * ) PLANE_ANGLE_UNIT ( ) SI_UNIT ( $, .RADIAN. ) );
#2 = CC_DESIGN_PERSON_AND_ORGANIZATION_ASSIGNMENT ( #79, #62, ( #39 ) ) ;
#3 = PERSON_AND_ORGANIZATION_ROLE ( 'classification_officer' ) ;
#4 = PERSON_AND_ORGANIZATION ( #115, #121 ) ;
#5 = SHAPE_DEFINITION_REPRESENTATION ( #63, #84 ) ;
#6 = AXIS2_PLACEMENT_3D ( 'NONE', #11, #34, #59 ) ;
#7 = ORIENTED_EDGE ( 'NONE', *, *, #55, .T. ) ;
#8 = PRODUCT_DEFINITION ( 'UNKNOWN', '', #97, #15 ) ;
#9 = ORIENTED_EDGE ( 'NONE', *, *, #168, .T. ) ;
#10 = LINE ( 'NONE', #153, #66 ) ;
#11 = CARTESIAN_POINT ( 'NONE',  ( -3.000000000000000000, 0.000000000000000000, 0.000000000000000000 ) ) ;
#12 = DIRECTION ( 'NONE',  ( 0.000000000000000000, 0.000000000000000000, 1.000000000000000000 ) ) ;
#13 = DATE_TIME_ROLE ( 'classification_date' ) ;
#14 = CC_DESIGN_DATE_AND_TIME_ASSIGNMENT ( #166, #143, ( #8 ) ) ;
#15 = DESIGN_CONTEXT ( 'detailed design', #22, 'design' ) ;
#16 = ADVANCED_FACE ( 'NONE', ( #57 ), #44, .F. ) ;
#17 = AXIS2_PLACEMENT_3D ( 'NONE', #33, #37, #25 ) ;
#18 = CARTESIAN_POINT ( 'NONE',  ( 3.000000000000001776, 1.555301434917138433E-15, -12.69999999999999929 ) ) ;
#19 = VERTEX_POINT ( 'NONE', #172 ) ;
#20 = ORIENTED_EDGE ( 'NONE', *, *, #112, .F. ) ;
#21 = CIRCLE ( 'NONE', #129, 12.69999999999999929 ) ;
#22 = APPLICATION_CONTEXT ( 'configuration controlled 3d designs of mechanical parts and assemblies' ) ;
#23 = CYLINDRICAL_SURFACE ( 'NONE', #99, 12.69999999999999929 ) ;
#24 = ADVANCED_FACE ( 'NONE', ( #100 ), #113, .T. ) ;
#25 = DIRECTION ( 'NONE',  ( 1.000000000000000000, 0.000000000000000000, 0.000000000000000000 ) ) ;
#26 = APPROVAL_DATE_TIME ( #50, #157 ) ;
#27 = DATE_AND_TIME ( #92, #137 ) ;
#28 = APPROVAL_PERSON_ORGANIZATION ( #82, #68, #128 ) ;
#29 = CC_DESIGN_APPROVAL ( #75, ( #8 ) ) ;
#30 = APPROVAL_PERSON_ORGANIZATION ( #48, #75, #91 ) ;
#31 = VERTEX_POINT ( 'NONE', #118 ) ;
#32 = ORIENTED_EDGE ( 'NONE', *, *, #139, .F. ) ;
#33 = CARTESIAN_POINT ( 'NONE',  ( 0.000000000000000000, 0.000000000000000000, 0.000000000000000000 ) ) ;
#34 = DIRECTION ( 'NONE',  ( -1.000000000000000000, -0.000000000000000000, -0.000000000000000000 ) ) ;
#35 = CC_DESIGN_PERSON_AND_ORGANIZATION_ASSIGNMENT ( #52, #108, ( #97 ) ) ;
#36 = MECHANICAL_CONTEXT ( 'NONE', #53, 'mechanical' ) ;
#37 = DIRECTION ( 'NONE',  ( 0.000000000000000000, 0.000000000000000000, 1.000000000000000000 ) ) ;
#38 = APPROVAL_DATE_TIME ( #51, #68 ) ;
#39 = PRODUCT ( 'Q-OZHWP-R2-25.4-405-M', 'Q-OZHWP-R2-25.4-405-M', '', ( #36 ) ) ;
#40 = CALENDAR_DATE ( 2020, 22, 12 ) ;
#41 = CC_DESIGN_PERSON_AND_ORGANIZATION_ASSIGNMENT ( #140, #156, ( #8 ) ) ;
#42 = CLOSED_SHELL ( 'NONE', ( #106, #24, #16, #83 ) ) ;
#43 = EDGE_LOOP ( 'NONE', ( #71, #150, #9, #20 ) ) ;
#44 = PLANE ( 'NONE',  #167 ) ;
#45 = CC_DESIGN_SECURITY_CLASSIFICATION ( #103, ( #97 ) ) ;
#46 = DIRECTION ( 'NONE',  ( -1.000000000000000000, -0.000000000000000000, -0.000000000000000000 ) ) ;
#47 = DIRECTION ( 'NONE',  ( 0.000000000000000000, 0.000000000000000000, 1.000000000000000000 ) ) ;
#48 = PERSON_AND_ORGANIZATION ( #115, #121 ) ;
#49 = SECURITY_CLASSIFICATION_LEVEL ( 'unclassified' ) ;
#50 = DATE_AND_TIME ( #126, #109 ) ;
#51 = DATE_AND_TIME ( #40, #169 ) ;
#52 = PERSON_AND_ORGANIZATION ( #115, #121 ) ;
#53 = APPLICATION_CONTEXT ( 'configuration controlled 3d designs of mechanical parts and assemblies' ) ;
#54 = DIRECTION ( 'NONE',  ( -1.000000000000000000, 0.000000000000000000, -0.000000000000000000 ) ) ;
#55 = EDGE_CURVE ( 'NONE', #114, #19, #85, .T. ) ;
#56 = EDGE_LOOP ( 'NONE', ( #88, #132, #160, #77 ) ) ;
#57 = FACE_OUTER_BOUND ( 'NONE', #162, .T. ) ;
#58 =( LENGTH_UNIT ( ) NAMED_UNIT ( * ) SI_UNIT ( .MILLI., .METRE. ) );
#59 = DIRECTION ( 'NONE',  ( 0.000000000000000000, 0.000000000000000000, 1.000000000000000000 ) ) ;
#60 = DIRECTION ( 'NONE',  ( -1.000000000000000000, -0.000000000000000000, -0.000000000000000000 ) ) ;
#61 = CC_DESIGN_DATE_AND_TIME_ASSIGNMENT ( #94, #13, ( #103 ) ) ;
#62 = PERSON_AND_ORGANIZATION_ROLE ( 'design_owner' ) ;
#63 = PRODUCT_DEFINITION_SHAPE ( 'NONE', 'NONE',  #8 ) ;
#64 = APPROVAL_ROLE ( '' ) ;
#65 = COORDINATED_UNIVERSAL_TIME_OFFSET ( 8, 0, .AHEAD. ) ;
#66 = VECTOR ( 'NONE', #60, 1000.000000000000000 ) ;
#67 = CALENDAR_DATE ( 2020, 22, 12 ) ;
#68 = APPROVAL ( #125, 'UNSPECIFIED' ) ;
#69 = COORDINATED_UNIVERSAL_TIME_OFFSET ( 8, 0, .AHEAD. ) ;
#70 =( GEOMETRIC_REPRESENTATION_CONTEXT ( 3 ) GLOBAL_UNCERTAINTY_ASSIGNED_CONTEXT ( ( #142 ) ) GLOBAL_UNIT_ASSIGNED_CONTEXT ( ( #58, #1, #117 ) ) REPRESENTATION_CONTEXT ( 'NONE', 'WORKASPACE' ) );
#71 = ORIENTED_EDGE ( 'NONE', *, *, #163, .F. ) ;
#72 = APPROVAL_PERSON_ORGANIZATION ( #155, #157, #64 ) ;
#73 = ORIENTED_EDGE ( 'NONE', *, *, #96, .F. ) ;
#74 = FACE_OUTER_BOUND ( 'NONE', #56, .T. ) ;
#75 = APPROVAL ( #164, 'UNSPECIFIED' ) ;
#76 = DIRECTION ( 'NONE',  ( -1.000000000000000000, -0.000000000000000000, -0.000000000000000000 ) ) ;
#77 = ORIENTED_EDGE ( 'NONE', *, *, #168, .F. ) ;
#78 = DIRECTION ( 'NONE',  ( -1.000000000000000000, -0.000000000000000000, -0.000000000000000000 ) ) ;
#79 = PERSON_AND_ORGANIZATION ( #115, #121 ) ;
#80 = CIRCLE ( 'NONE', #122, 12.69999999999999929 ) ;
#81 = CARTESIAN_POINT ( 'NONE',  ( -3.000000000000001776, 0.000000000000000000, 0.000000000000000000 ) ) ;
#82 = PERSON_AND_ORGANIZATION ( #115, #121 ) ;
#83 = ADVANCED_FACE ( 'NONE', ( #135 ), #98, .F. ) ;
#84 = ADVANCED_BREP_SHAPE_REPRESENTATION ( 'Q-OZHWP-R2-25.4-405-M', ( #144, #17 ), #70 ) ;
#85 = CIRCLE ( 'NONE', #107, 12.69999999999999929 ) ;
#86 = VERTEX_POINT ( 'NONE', #18 ) ;
#87 = DIRECTION ( 'NONE',  ( -1.000000000000000000, -0.000000000000000000, -0.000000000000000000 ) ) ;
#88 = ORIENTED_EDGE ( 'NONE', *, *, #139, .T. ) ;
#89 = APPLICATION_PROTOCOL_DEFINITION ( 'international standard', 'config_control_design', 1994, #53 ) ;
#90 = PRODUCT_RELATED_PRODUCT_CATEGORY ( 'detail', '', ( #39 ) ) ;
#91 = APPROVAL_ROLE ( '' ) ;
#92 = CALENDAR_DATE ( 2020, 22, 12 ) ;
#93 = AXIS2_PLACEMENT_3D ( 'NONE', #134, #102, #12 ) ;
#94 = DATE_AND_TIME ( #67, #130 ) ;
#95 = COORDINATED_UNIVERSAL_TIME_OFFSET ( 8, 0, .AHEAD. ) ;
#96 = EDGE_CURVE ( 'NONE', #86, #31, #80, .T. ) ;
#97 = PRODUCT_DEFINITION_FORMATION_WITH_SPECIFIED_SOURCE ( 'ANY', '', #39, .NOT_KNOWN. ) ;
#98 = PLANE ( 'NONE',  #111 ) ;
#99 = AXIS2_PLACEMENT_3D ( 'NONE', #173, #78, #133 ) ;
#100 = FACE_OUTER_BOUND ( 'NONE', #43, .T. ) ;
#101 = DIRECTION ( 'NONE',  ( 0.000000000000000000, 0.000000000000000000, 1.000000000000000000 ) ) ;
#102 = DIRECTION ( 'NONE',  ( -1.000000000000000000, -0.000000000000000000, -0.000000000000000000 ) ) ;
#103 = SECURITY_CLASSIFICATION ( '', '', #49 ) ;
#104 = CARTESIAN_POINT ( 'NONE',  ( 3.000000000000001776, 0.000000000000000000, 0.000000000000000000 ) ) ;
#105 = APPROVAL_DATE_TIME ( #27, #75 ) ;
#106 = ADVANCED_FACE ( 'NONE', ( #74 ), #23, .T. ) ;
#107 = AXIS2_PLACEMENT_3D ( 'NONE', #174, #46, #101 ) ;
#108 = PERSON_AND_ORGANIZATION_ROLE ( 'creator' ) ;
#109 = LOCAL_TIME ( 17, 18, 55.00000000000000000, #65 ) ;
#110 = PERSON_AND_ORGANIZATION_ROLE ( 'design_supplier' ) ;
#111 = AXIS2_PLACEMENT_3D ( 'NONE', #170, #149, #147 ) ;
#112 = EDGE_CURVE ( 'NONE', #19, #114, #21, .T. ) ;
#113 = CYLINDRICAL_SURFACE ( 'NONE', #6, 12.69999999999999929 ) ;
#114 = VERTEX_POINT ( 'NONE', #120 ) ;
#115 = PERSON ( 'UNSPECIFIED', 'UNSPECIFIED', 'UNSPECIFIED', ('UNSPECIFIED'), ('UNSPECIFIED'), ('UNSPECIFIED') ) ;
#116 = CARTESIAN_POINT ( 'NONE',  ( 3.000000000000000888, 12.69999999999999929, 0.000000000000000000 ) ) ;
#117 =( NAMED_UNIT ( * ) SI_UNIT ( $, .STERADIAN. ) SOLID_ANGLE_UNIT ( ) );
#118 = CARTESIAN_POINT ( 'NONE',  ( 3.000000000000001776, 0.000000000000000000, 12.69999999999999929 ) ) ;
#119 = DIRECTION ( 'NONE',  ( 0.000000000000000000, 0.000000000000000000, 1.000000000000000000 ) ) ;
#120 = CARTESIAN_POINT ( 'NONE',  ( -3.000000000000001776, 0.000000000000000000, 12.69999999999999929 ) ) ;
#121 = ORGANIZATION ( 'UNSPECIFIED', 'UNSPECIFIED', '' ) ;
#122 = AXIS2_PLACEMENT_3D ( 'NONE', #104, #87, #47 ) ;
#123 = APPLICATION_PROTOCOL_DEFINITION ( 'international standard', 'config_control_design', 1994, #22 ) ;
#124 = APPROVAL_STATUS ( 'not_yet_approved' ) ;
#125 = APPROVAL_STATUS ( 'not_yet_approved' ) ;
#126 = CALENDAR_DATE ( 2020, 22, 12 ) ;
#127 = LOCAL_TIME ( 17, 18, 55.00000000000000000, #69 ) ;
#128 = APPROVAL_ROLE ( '' ) ;
#129 = AXIS2_PLACEMENT_3D ( 'NONE', #81, #76, #119 ) ;
#130 = LOCAL_TIME ( 17, 18, 55.00000000000000000, #95 ) ;
#131 = DIRECTION ( 'NONE',  ( -0.000000000000000000, 0.000000000000000000, 1.000000000000000000 ) ) ;
#132 = ORIENTED_EDGE ( 'NONE', *, *, #163, .T. ) ;
#133 = DIRECTION ( 'NONE',  ( 0.000000000000000000, 0.000000000000000000, 1.000000000000000000 ) ) ;
#134 = CARTESIAN_POINT ( 'NONE',  ( 3.000000000000001776, 0.000000000000000000, 0.000000000000000000 ) ) ;
#135 = FACE_OUTER_BOUND ( 'NONE', #171, .T. ) ;
#136 = CARTESIAN_POINT ( 'NONE',  ( -3.000000000000000000, 1.555301434917138433E-15, -12.69999999999999929 ) ) ;
#137 = LOCAL_TIME ( 17, 18, 55.00000000000000000, #165 ) ;
#138 = CIRCLE ( 'NONE', #93, 12.69999999999999929 ) ;
#139 = EDGE_CURVE ( 'NONE', #31, #86, #138, .T. ) ;
#140 = PERSON_AND_ORGANIZATION ( #115, #121 ) ;
#141 = COORDINATED_UNIVERSAL_TIME_OFFSET ( 8, 0, .AHEAD. ) ;
#142 = UNCERTAINTY_MEASURE_WITH_UNIT (LENGTH_MEASURE( 1.000000000000000082E-05 ), #58, 'distance_accuracy_value', 'NONE');
#143 = DATE_TIME_ROLE ( 'creation_date' ) ;
#144 = MANIFOLD_SOLID_BREP ( 'Ðý×', #42 ) ;
#145 = CALENDAR_DATE ( 2020, 22, 12 ) ;
#146 = CC_DESIGN_PERSON_AND_ORGANIZATION_ASSIGNMENT ( #154, #3, ( #103 ) ) ;
#147 = DIRECTION ( 'NONE',  ( 0.000000000000000000, 0.000000000000000000, -1.000000000000000000 ) ) ;
#148 = CC_DESIGN_PERSON_AND_ORGANIZATION_ASSIGNMENT ( #4, #110, ( #97 ) ) ;
#149 = DIRECTION ( 'NONE',  ( 1.000000000000000000, 0.000000000000000000, 0.000000000000000000 ) ) ;
#150 = ORIENTED_EDGE ( 'NONE', *, *, #96, .T. ) ;
#151 = DIRECTION ( 'NONE',  ( -1.000000000000000000, -0.000000000000000000, -0.000000000000000000 ) ) ;
#152 = VECTOR ( 'NONE', #151, 1000.000000000000000 ) ;
#153 = CARTESIAN_POINT ( 'NONE',  ( -3.000000000000000000, 0.000000000000000000, 12.69999999999999929 ) ) ;
#154 = PERSON_AND_ORGANIZATION ( #115, #121 ) ;
#155 = PERSON_AND_ORGANIZATION ( #115, #121 ) ;
#156 = PERSON_AND_ORGANIZATION_ROLE ( 'creator' ) ;
#157 = APPROVAL ( #124, 'UNSPECIFIED' ) ;
#158 = CC_DESIGN_APPROVAL ( #157, ( #103 ) ) ;
#159 = CC_DESIGN_APPROVAL ( #68, ( #97 ) ) ;
#160 = ORIENTED_EDGE ( 'NONE', *, *, #55, .F. ) ;
#161 = ORIENTED_EDGE ( 'NONE', *, *, #112, .T. ) ;
#162 = EDGE_LOOP ( 'NONE', ( #32, #73 ) ) ;
#163 = EDGE_CURVE ( 'NONE', #86, #19, #175, .T. ) ;
#164 = APPROVAL_STATUS ( 'not_yet_approved' ) ;
#165 = COORDINATED_UNIVERSAL_TIME_OFFSET ( 8, 0, .AHEAD. ) ;
#166 = DATE_AND_TIME ( #145, #127 ) ;
#167 = AXIS2_PLACEMENT_3D ( 'NONE', #116, #54, #131 ) ;
#168 = EDGE_CURVE ( 'NONE', #31, #114, #10, .T. ) ;
#169 = LOCAL_TIME ( 17, 18, 55.00000000000000000, #141 ) ;
#170 = CARTESIAN_POINT ( 'NONE',  ( -3.000000000000000888, 12.69999999999999929, 0.000000000000000000 ) ) ;
#171 = EDGE_LOOP ( 'NONE', ( #7, #161 ) ) ;
#172 = CARTESIAN_POINT ( 'NONE',  ( -3.000000000000001776, 1.555301434917138433E-15, -12.69999999999999929 ) ) ;
#173 = CARTESIAN_POINT ( 'NONE',  ( -3.000000000000000000, 0.000000000000000000, 0.000000000000000000 ) ) ;
#174 = CARTESIAN_POINT ( 'NONE',  ( -3.000000000000001776, 0.000000000000000000, 0.000000000000000000 ) ) ;
#175 = LINE ( 'NONE', #136, #152 ) ;
ENDSEC;
END-ISO-10303-21;
